  0
SECTION
  2
HEADER
  9
$ACADVER
  1
AC1009
  9
$INSBASE
 10
9.0
 20
37.69575408126193
 30
0.0
  9
$EXTMIN
 10
9.0
 20
37.69575408126193
 30
0.0
  9
$EXTMAX
 10
71.0
 20
90.90149484867201
 30
0.0
  9
$LIMMIN
 10
0.0
 20
0.0
  9
$LIMMAX
 10
420.0
 20
297.0
  9
$ORTHOMODE
 70
     0
  9
$REGENMODE
 70
     0
  9
$FILLMODE
 70
     1
  9
$QTEXTMODE
 70
     0
  9
$MIRRTEXT
 70
     0
  9
$DRAGMODE
 70
     2
  9
$LTSCALE
 40
1.0
  9
$OSMODE
 70
     0
  9
$ATTMODE
 70
     1
  9
$TEXTSIZE
 40
3.5
  9
$TRACEWID
 40
0.1
  9
$TEXTSTYLE
  7
STANDARD
  9
$CLAYER
  8
0
  9
$CELTYPE
  6
BYLAYER
  9
$CECOLOR
 62
   256
  9
$DIMSCALE
 40
1.0
  9
$DIMASZ
 40
2.0
  9
$DIMEXO
 40
1.0
  9
$DIMDLI
 40
8.0
  9
$DIMRND
 40
0.0
  9
$DIMDLE
 40
0.0
  9
$DIMEXE
 40
2.0
  9
$DIMTP
 40
0.1
  9
$DIMTM
 40
0.1
  9
$DIMTXT
 40
3.5
  9
$DIMCEN
 40
2.0
  9
$DIMTSZ
 40
0.0
  9
$DIMTOL
 70
     0
  9
$DIMLIM
 70
     0
  9
$DIMTIH
 70
     0
  9
$DIMTOH
 70
     0
  9
$DIMSE1
 70
     0
  9
$DIMSE2
 70
     0
  9
$DIMTAD
 70
     1
  9
$DIMZIN
 70
     0
  9
$DIMBLK
  1

  9
$DIMASO
 70
     1
  9
$DIMSHO
 70
     0
  9
$DIMPOST
  1

  9
$DIMAPOST
  1

  9
$DIMALT
 70
     0
  9
$DIMALTD
 70
     2
  9
$DIMALTF
 40
25.39999999999999
  9
$DIMLFAC
 40
1.0
  9
$DIMTOFL
 70
     0
  9
$DIMTVP
 40
0.0
  9
$DIMTIX
 70
     0
  9
$DIMSOXD
 70
     0
  9
$DIMSAH
 70
     0
  9
$DIMBLK1
  1

  9
$DIMBLK2
  1

  9
$DIMSTYLE
  2
*UNNAMED
  9
$DIMCLRD
 70
     0
  9
$DIMCLRE
 70
     0
  9
$DIMCLRT
 70
     0
  9
$DIMTFAC
 40
1.0
  9
$DIMGAP
 40
0.09
  9
$LUNITS
 70
     2
  9
$LUPREC
 70
     3
  9
$SKETCHINC
 40
0.1
  9
$FILLETRAD
 40
20.0
  9
$AUNITS
 70
     0
  9
$AUPREC
 70
     1
  9
$MENU
  1

  9
$ELEVATION
 40
0.0
  9
$PELEVATION
 40
0.0
  9
$THICKNESS
 40
0.0
  9
$LIMCHECK
 70
     0
  9
$BLIPMODE
 70
     0
  9
$CHAMFERA
 40
0.0
  9
$CHAMFERB
 40
0.0
  9
$SKPOLY
 70
     1
  9
$TDCREATE
 40
2448529.545631944
  9
$TDUPDATE
 40
2449393.431928588
  9
$TDINDWG
 40
0.0161390046
  9
$TDUSRTIMER
 40
0.0161390046
  9
$USRTIMER
 70
     1
  9
$ANGBASE
 50
0.0
  9
$ANGDIR
 70
     0
  9
$PDMODE
 70
     3
  9
$PDSIZE
 40
0.0
  9
$PLINEWID
 40
0.0
  9
$COORDS
 70
     2
  9
$SPLFRAME
 70
     0
  9
$SPLINETYPE
 70
     6
  9
$SPLINESEGS
 70
     8
  9
$ATTDIA
 70
     1
  9
$ATTREQ
 70
     1
  9
$HANDLING
 70
     1
  9
$HANDSEED
  5
143
  9
$SURFTAB1
 70
     6
  9
$SURFTAB2
 70
     6
  9
$SURFTYPE
 70
     6
  9
$SURFU
 70
     6
  9
$SURFV
 70
     6
  9
$UCSNAME
  2
MB-BKS
  9
$UCSORG
 10
0.0
 20
0.0
 30
0.0
  9
$UCSXDIR
 10
1.0
 20
0.0
 30
0.0
  9
$UCSYDIR
 10
0.0
 20
1.0
 30
0.0
  9
$PUCSNAME
  2

  9
$PUCSORG
 10
0.0
 20
0.0
 30
0.0
  9
$PUCSXDIR
 10
1.0
 20
0.0
 30
0.0
  9
$PUCSYDIR
 10
0.0
 20
1.0
 30
0.0
  9
$USERI1
 70
     0
  9
$USERI2
 70
     3
  9
$USERI3
 70
    15
  9
$USERI4
 70
     0
  9
$USERI5
 70
     0
  9
$USERR1
 40
1.0
  9
$USERR2
 40
1.0
  9
$USERR3
 40
0.0
  9
$USERR4
 40
1.0
  9
$USERR5
 40
0.0
  9
$WORLDVIEW
 70
     1
  9
$SHADEDGE
 70
     3
  9
$SHADEDIF
 70
    70
  9
$TILEMODE
 70
     1
  9
$MAXACTVP
 70
    16
  9
$PINSBASE
 10
0.0
 20
0.0
 30
0.0
  9
$PLIMCHECK
 70
     0
  9
$PEXTMIN
 10
1.000000000000000E+20
 20
1.000000000000000E+20
 30
1.000000000000000E+20
  9
$PEXTMAX
 10
-1.000000000000000E+20
 20
-1.000000000000000E+20
 30
-1.000000000000000E+20
  9
$PLIMMIN
 10
0.0
 20
0.0
  9
$PLIMMAX
 10
12.0
 20
9.0
  9
$UNITMODE
 70
     0
  9
$VISRETAIN
 70
     0
  9
$PLINEGEN
 70
     0
  9
$PSLTSCALE
 70
     0
  9
$TREEDEPTH
 70
  3020
  9
$DWGCODEPAGE
  3
undefined
  0
ENDSEC
  0
SECTION
  2
TABLES
  0
TABLE
  2
VPORT
 70
     6
  0
VPORT
  2
*ACTIVE
 70
     0
 10
0.0
 20
0.0
 11
1.0
 21
1.0
 12
45.67779745353263
 22
66.44741733932775
 13
0.0
 23
0.0
 14
1.0
 24
1.0
 15
10.0
 25
10.0
 16
0.0
 26
0.0
 36
1.0
 17
0.0
 27
0.0
 37
0.0
 40
57.50332651613166
 41
1.275675675675675
 42
50.0
 43
0.0
 44
0.0
 50
0.0
 51
0.0
 71
     0
 72
   100
 73
     1
 74
     1
 75
     0
 76
     0
 77
     0
 78
     0
  0
VPORT
  2
G-AF4R
 70
     0
 10
0.0
 20
0.0
 11
0.75
 21
1.0
 12
237.6648880984141
 22
230.3418803418803
 13
0.0
 23
0.0
 14
1.0
 24
1.0
 15
10.0
 25
10.0
 16
0.0
 26
0.0
 36
1.0
 17
0.0
 27
0.0
 37
0.0
 40
460.6837606837606
 41
1.03179190751445
 42
50.0
 43
0.0
 44
0.0
 50
0.0
 51
0.0
 71
     0
 72
   100
 73
     1
 74
     0
 75
     1
 76
     0
 77
     0
 78
     0
  0
VPORT
  2
G-AF4R
 70
     0
 10
0.75
 20
0.0
 11
1.0
 21
0.3333333333333333
 12
237.1936694403654
 22
228.1481481481481
 13
0.0
 23
0.0
 14
1.0
 24
1.0
 15
10.0
 25
10.0
 16
0.0
 26
0.0
 36
1.0
 17
0.0
 27
0.0
 37
0.0
 40
456.2962962962962
 41
1.03964757709251
 42
50.0
 43
0.0
 44
0.0
 50
0.0
 51
0.0
 71
     0
 72
   100
 73
     1
 74
     0
 75
     1
 76
     0
 77
     0
 78
     0
  0
VPORT
  2
G-AF4R
 70
     0
 10
0.75
 20
0.3333333333333333
 11
1.0
 21
0.6666666666666667
 12
237.7939511563965
 22
230.7407407407407
 13
0.0
 23
0.0
 14
1.0
 24
1.0
 15
10.0
 25
10.0
 16
0.0
 26
0.0
 36
1.0
 17
0.0
 27
0.0
 37
0.0
 40
461.4814814814814
 41
1.030567685589519
 42
50.0
 43
0.0
 44
0.0
 50
0.0
 51
0.0
 71
     0
 72
   100
 73
     1
 74
     0
 75
     1
 76
     0
 77
     0
 78
     0
  0
VPORT
  2
G-AF4R
 70
     0
 10
0.75
 20
0.6666666666666667
 11
1.0
 21
1.0
 12
237.495126705653
 22
229.4444444444444
 13
0.0
 23
0.0
 14
1.0
 24
1.0
 15
10.0
 25
10.0
 16
0.0
 26
0.0
 36
1.0
 17
0.0
 27
0.0
 37
0.0
 40
458.8888888888889
 41
1.035087719298245
 42
50.0
 43
0.0
 44
0.0
 50
0.0
 51
0.0
 71
     0
 72
   100
 73
     1
 74
     0
 75
     1
 76
     0
 77
     0
 78
     0
  0
ENDTAB
  0
TABLE
  2
LTYPE
 70
     1
  0
LTYPE
  2
AUSGEZOGEN
 70
    64
  3
Solid line
 72
    65
 73
     0
 40
0.0
  0
ENDTAB
  0
TABLE
  2
LAYER
 70
     3
  0
LAYER
  2
0
 70
     0
 62
     7
  6
AUSGEZOGEN
  0
LAYER
  2
ITEM_50
 70
    64
 62
     7
  6
AUSGEZOGEN
  0
LAYER
  2
ITEM_HILFE
 70
    64
 62
     3
  6
AUSGEZOGEN
  0
ENDTAB
  0
TABLE
  2
STYLE
 70
     1
  0
STYLE
  2
STANDARD
 70
     0
 40
0.0
 41
1.0
 50
0.0
 71
     0
 42
3.5
  3
iso
  4

  0
ENDTAB
  0
TABLE
  2
VIEW
 70
     5
  0
VIEW
  2
1
 70
     0
 40
146.0
 10
113.5
 20
206.0
 41
207.0
 11
0.0
 21
0.0
 31
1.0
 12
0.0
 22
0.0
 32
0.0
 42
50.0
 43
0.0
 44
0.0
 50
0.0
 71
     0
  0
VIEW
  2
2
 70
     0
 40
128.0
 10
309.5
 20
218.0
 41
193.0
 11
0.0
 21
0.0
 31
1.0
 12
0.0
 22
0.0
 32
0.0
 42
50.0
 43
0.0
 44
0.0
 50
0.0
 71
     0
  0
VIEW
  2
3
 70
     0
 40
154.0
 10
127.0
 20
89.0
 41
220.0
 11
0.0
 21
0.0
 31
1.0
 12
0.0
 22
0.0
 32
0.0
 42
50.0
 43
0.0
 44
0.0
 50
0.0
 71
     0
  0
VIEW
  2
4
 70
     0
 40
155.0
 10
311.0
 20
77.5
 41
218.0
 11
0.0
 21
0.0
 31
1.0
 12
0.0
 22
0.0
 32
0.0
 42
50.0
 43
0.0
 44
0.0
 50
0.0
 71
     0
  0
VIEW
  2
5
 70
     0
 40
123.0
 10
207.0
 20
149.5
 41
184.0
 11
0.0
 21
0.0
 31
1.0
 12
0.0
 22
0.0
 32
0.0
 42
50.0
 43
0.0
 44
0.0
 50
0.0
 71
     0
  0
ENDTAB
  0
TABLE
  2
UCS
 70
     1
  0
UCS
  2
MB-BKS
 70
     0
 10
0.0
 20
0.0
 30
0.0
 11
1.0
 21
0.0
 31
0.0
 12
0.0
 22
1.0
 32
0.0
  0
ENDTAB
  0
TABLE
  2
APPID
 70
     1
  0
APPID
  2
ACAD
 70
    64
  0
ENDTAB
  0
TABLE
  2
DIMSTYLE
 70
     0
  0
ENDTAB
  0
ENDSEC
  0
SECTION
  2
BLOCKS
  0
ENDSEC
  0
SECTION
  2
ENTITIES
  0
LINE
  8
ITEM_50
  5
47
 10
9.0
 20
50.0
 30
0.0
 11
10.0
 21
50.0
 31
0.0
  0
LINE
  8
ITEM_50
  5
48
 10
10.0
 20
50.0
 30
0.0
 11
10.0
 21
90.0
 31
0.0
  0
LINE
  8
ITEM_50
  5
49
 10
10.0
 20
90.0
 30
0.0
 11
9.0
 21
90.0
 31
0.0
  0
LINE
  8
ITEM_50
  5
4B
 10
9.0
 20
85.0
 30
0.0
 11
10.0
 21
85.0
 31
0.0
  0
LINE
  8
ITEM_50
  5
4C
 10
9.0
 20
76.0
 30
0.0
 11
10.0
 21
76.0
 31
0.0
  0
LINE
  8
ITEM_50
  5
4E
 10
60.24616555354103
 20
37.69575408126193
 30
0.0
 11
60.24616555354103
 21
38.69575408126193
 31
0.0
  0
LINE
  8
ITEM_50
  5
4F
 10
60.24616555354103
 20
38.69575408126193
 30
0.0
 11
20.24616555354103
 21
38.69575408126193
 31
0.0
  0
LINE
  8
ITEM_50
  5
50
 10
20.24616555354103
 20
38.69575408126193
 30
0.0
 11
20.24616555354103
 21
37.69575408126193
 31
0.0
  0
LINE
  8
ITEM_50
  5
51
 10
70.0
 20
50.0
 30
0.0
 11
71.0
 21
50.0
 31
0.0
  0
LINE
  8
ITEM_50
  5
53
 10
71.0
 20
90.0
 30
0.0
 11
70.0
 21
90.0
 31
0.0
  0
LINE
  8
ITEM_50
  5
54
 10
70.0
 20
90.0
 30
0.0
 11
70.0
 21
50.0
 31
0.0
  0
LINE
  8
ITEM_50
  5
55
 10
70.0
 20
66.0
 30
0.0
 11
71.0
 21
66.0
 31
0.0
  0
LINE
  8
ITEM_50
  5
56
 10
71.0
 20
74.0
 30
0.0
 11
70.0
 21
74.0
 31
0.0
  0
CIRCLE
  8
ITEM_50
  5
57
 10
40.116249811012
 20
69.88476482485486
 30
0.0
 40
3.399999999999999
  0
LINE
  8
ITEM_50
  5
58
 10
32.6163610394354
 20
51.88471848008578
 30
0.0
 11
32.6163610394354
 21
51.88471848008578
 31
0.0
  0
LINE
  8
ITEM_50
  5
59
 10
47.61636103912934
 20
51.88481117031114
 30
0.0
 11
47.61636103912934
 21
51.88481117031114
 31
0.0
  0
POINT
  8
ITEM_HILFE
  5
5A
 10
60.1163733975973
 20
49.88488841220379
 30
0.0
  0
POINT
  8
ITEM_HILFE
  5
5B
 10
20.11637339836087
 20
49.8846412382695
 30
0.0
  0
POINT
  8
ITEM_HILFE
  5
5C
 10
20.11612622442658
 20
89.88464123750594
 30
0.0
  0
POINT
  8
ITEM_HILFE
  5
5D
 10
40.11615712078653
 20
84.88476482456115
 30
0.0
  0
POINT
  8
ITEM_HILFE
  5
73
 10
60.11612622365312
 20
89.88488841143045
 30
0.0
  0
POINT
  8
ITEM_HILFE
  5
74
 10
40.11637339796926
 20
49.88476482523676
 30
0.0
  0
POINT
  8
ITEM_HILFE
  5
75
 10
40.11634559090164
 20
54.38476482515085
 30
0.0
  0
POINT
  8
ITEM_HILFE
  5
76
 10
20.11624981138395
 20
69.88464123788777
 30
0.0
  0
POINT
  8
ITEM_HILFE
  5
77
 10
24.61624981129804
 20
69.88466904495537
 30
0.0
  0
POLYLINE
  8
ITEM_50
  5
78
 66
     1
 10
0.0
 20
0.0
 30
0.0
 70
     1
  0
VERTEX
  8
ITEM_50
  5
79
 10
47.11621273477843
 20
75.88480808017142
 30
0.0
 42
0.414213562373095
 50
0.0003540505810229
  0
VERTEX
  8
ITEM_50
  5
7A
 10
46.11621891414588
 20
74.88480190084217
 30
0.0
 50
0.0003540505810229
  0
VERTEX
  8
ITEM_50
  5
7B
 10
46.1162436315393
 20
70.88480190091851
 30
0.0
 42
0.414213562373095
 50
0.0003540505810229
  0
VERTEX
  8
ITEM_50
  5
7C
 10
47.11624981086858
 20
69.88480808028599
 30
0.0
 50
0.0003540505810229
  0
VERTEX
  8
ITEM_50
  5
7D
 10
54.11624981073481
 20
69.88485133572449
 30
0.0
 42
-0.414213562373095
 50
0.0003540505810229
  0
VERTEX
  8
ITEM_50
  5
7E
 10
54.61625290039945
 20
69.3848544254082
 30
0.0
 50
0.0003540505810229
  0
VERTEX
  8
ITEM_50
  5
7F
 10
54.61632334497072
 20
57.98485442562587
 30
0.0
 42
0.414213562373095
 50
0.0003540505810229
  0
VERTEX
  8
ITEM_50
  5
80
 10
55.61632952429999
 20
56.98486060499332
 30
0.0
 50
0.0003540505810229
  0
VERTEX
  8
ITEM_50
  5
81
 10
56.61632952428089
 20
56.98486678434167
 30
0.0
 42
0.4142135623730955
 50
0.0003540505810229
  0
VERTEX
  8
ITEM_50
  5
82
 10
57.61632334491344
 20
57.98487296367094
 30
0.0
 50
0.0003540505810229
  0
VERTEX
  8
ITEM_50
  5
83
 10
57.6162189139262
 20
74.88487296334827
 30
0.0
 42
0.414213562373095
 50
0.0003540505810229
  0
VERTEX
  8
ITEM_50
  5
84
 10
56.61621273459694
 20
75.88486678398082
 30
0.0
 50
0.0003540505810229
  0
SEQEND
  8
ITEM_50
  5
85
  0
POINT
  8
ITEM_HILFE
  5
86
 10
54.61624981072527
 20
69.88485442539871
 30
0.0
  0
POINT
  8
ITEM_HILFE
  5
87
 10
54.61632952431908
 20
56.98485442564502
 30
0.0
  0
POINT
  8
ITEM_HILFE
  5
88
 10
57.6163295242618
 20
56.9848729636901
 30
0.0
  0
POINT
  8
ITEM_HILFE
  5
89
 10
57.61621273457785
 20
75.88487296332924
 30
0.0
  0
POINT
  8
ITEM_HILFE
  5
8A
 10
46.11624981088755
 20
69.88480190093767
 30
0.0
  0
POINT
  8
ITEM_HILFE
  5
8B
 10
46.11621273479741
 20
75.88480190082312
 30
0.0
  0
ARC
  8
ITEM_50
  5
DF
 10
24.11634868089457
 20
53.88466595558659
 30
0.0
 40
2.200000000000016
 50
180.0003540504944
 51
270.0003540505817
  0
LINE
  8
ITEM_50
  5
E0
 10
24.11636227546098
 20
51.68466595562858
 30
0.0
 11
27.81636227539664
 21
51.6846888192175
 31
0.0
  0
ARC
  8
ITEM_50
  5
E1
 10
27.81635918572247
 20
52.18468881920796
 30
0.0
 40
0.4999999999999977
 50
270.0003540505808
 51
0.0003540505812265
  0
LINE
  8
ITEM_50
  5
E2
 10
28.31635918571292
 20
52.18469190888214
 30
0.0
 11
28.31632581723179
 21
57.58469190877902
 31
0.0
  0
ARC
  8
ITEM_50
  5
E3
 10
27.81632581724133
 20
57.58468881910484
 30
0.0
 40
0.5000000000000047
 50
0.0003540505812265
 51
90.00035405058082
  0
LINE
  8
ITEM_50
  5
E4
 10
27.81632272756715
 20
58.08468881909529
 30
0.0
 11
22.41632272766948
 21
58.08465545061416
 31
0.0
  0
ARC
  8
ITEM_50
  5
E5
 10
22.41632581734364
 20
57.58465545062372
 30
0.0
 40
0.4999999999999836
 50
90.00035405057876
 51
180.0003540504916
  0
LINE
  8
ITEM_50
  5
E6
 10
21.91632581735321
 20
57.58465236095032
 30
0.0
 11
21.91634868093655
 21
53.88465236102354
 31
0.0
  0
ARC
  8
ITEM_50
  5
E7
 10
23.61621891459501
 20
74.88466286551151
 30
0.0
 40
0.9999999999999952
 50
270.0003540505809
 51
0.0003540505812265
  0
LINE
  8
ITEM_50
  5
E8
 10
24.61621891457592
 20
74.88466904485987
 30
0.0
 11
24.61620964555338
 21
76.38466904483122
 31
0.0
  0
ARC
  8
ITEM_50
  5
E9
 10
24.11620964556293
 20
76.38466595515706
 30
0.0
 40
0.4999999999999977
 50
0.0003540505804123
 51
90.0003540505812
  0
LINE
  8
ITEM_50
  5
EA
 10
24.11620655588875
 20
76.88466595514749
 30
0.0
 11
22.61620655591625
 21
76.88465668612498
 31
0.0
  0
ARC
  8
ITEM_50
  5
EB
 10
22.61620346624266
 20
77.38465668611488
 30
0.0
 40
0.4999999999994539
 50
180.0003540505132
 51
270.0003540505132
  0
ARC
  8
ITEM_50
  5
EC
 10
24.61620346620503
 20
77.38466904481219
 30
0.0
 40
2.500000000000005
 50
90.00035405058113
 51
180.000354050581
  0
LINE
  8
ITEM_50
  5
ED
 10
24.61618801783414
 20
79.88466904476446
 30
0.0
 11
25.9237998623742
 21
79.88467712495356
 31
0.0
  0
ARC
  8
ITEM_50
  5
EE
 10
25.92383075911605
 20
74.88467712504903
 30
0.0
 40
4.99999999999999
 50
45.00035405058152
 51
90.00035405058174
  0
LINE
  8
ITEM_50
  5
EF
 10
29.45934281768562
 20
78.42023287820993
 30
0.0
 11
30.90173988611192
 21
76.97785363582131
 31
0.0
  0
ARC
  8
ITEM_50
  5
F0
 10
27.36622782754228
 20
73.44229788266048
 30
0.0
 40
5.000000000000005
 50
0.0003540505804123
 51
45.00035405058044
  0
LINE
  8
ITEM_50
  5
F1
 10
32.36622782744683
 20
73.44232877940221
 30
0.0
 11
32.36624981116974
 21
69.88471693490508
 31
0.0
  0
LINE
  8
ITEM_50
  5
F2
 10
32.36624981116974
 20
69.88471693490508
 30
0.0
 11
32.36627179489265
 21
66.32710509040786
 31
0.0
  0
ARC
  8
ITEM_50
  5
F3
 10
27.36627179498803
 20
66.32707419366619
 30
0.0
 40
5.000000000000079
 50
315.0003540505799
 51
0.0003540505799543
  0
LINE
  8
ITEM_50
  5
F4
 10
30.90182754814889
 20
62.79156213509645
 30
0.0
 11
29.45944830576046
 21
61.34916506667026
 31
0.0
  0
ARC
  8
ITEM_50
  5
F5
 10
25.92389255259961
 20
64.88467712523988
 30
0.0
 40
4.999999999999998
 50
270.0003540505803
 51
315.0003540505805
  0
LINE
  8
ITEM_50
  5
F6
 10
25.92392344934134
 20
59.88467712533535
 30
0.0
 11
24.61631160480128
 21
59.88466904514625
 31
0.0
  0
ARC
  8
ITEM_50
  5
F7
 10
24.61629615642982
 20
62.38466904509908
 30
0.0
 40
2.500000000000567
 50
180.000354050594
 51
270.000354050594
  0
ARC
  8
ITEM_50
  5
F8
 10
22.61629615646743
 20
62.38465668640181
 30
0.0
 40
0.4999999999999976
 50
90.00035405058082
 51
180.0003540505812
  0
LINE
  8
ITEM_50
  5
F9
 10
22.61629306679325
 20
62.88465668639226
 30
0.0
 11
24.11629306676575
 21
62.88466595541468
 31
0.0
  0
ARC
  8
ITEM_50
  5
FA
 10
24.11628997709157
 20
63.38466595540513
 30
0.0
 40
0.4999999999999977
 50
270.0003540505808
 51
0.0003540505812265
  0
LINE
  8
ITEM_50
  5
FB
 10
24.61628997708202
 20
63.38466904507932
 30
0.0
 11
24.61628070805949
 21
64.88466904505078
 31
0.0
  0
ARC
  8
ITEM_50
  5
FC
 10
23.61628070807858
 20
64.88466286570242
 30
0.0
 40
1.000000000000002
 50
0.0003540505812265
 51
90.00035405058102
  0
LINE
  8
ITEM_50
  5
FD
 10
23.61627452873023
 20
65.88466286568333
 30
0.0
 11
21.61627452876841
 21
65.88465050698664
 31
0.0
  0
ARC
  8
ITEM_50
  5
FE
 10
21.61628379779094
 20
64.38465050701526
 30
0.0
 40
1.5
 50
90.00035405058095
 51
180.0003540505809
  0
LINE
  8
ITEM_50
  5
FF
 10
20.11628379781959
 20
64.38464123799273
 30
0.0
 11
20.11634868097733
 21
53.88464123820048
 31
0.0
  0
ARC
  8
ITEM_50
  5
100
 10
24.11634868090094
 20
53.88466595559387
 30
0.0
 40
3.999999999999974
 50
180.0003540505806
 51
270.0003540505455
  0
LINE
  8
ITEM_50
  5
101
 10
24.11637339829189
 20
49.88466595567026
 30
0.0
 11
34.61637339809301
 21
49.88473083882153
 31
0.0
  0
ARC
  8
ITEM_50
  5
102
 10
34.61636412907138
 20
51.38473083879291
 30
0.0
 40
1.500000000000005
 50
270.0003540505462
 51
0.000354050580972
  0
LINE
  8
ITEM_50
  5
103
 10
36.11636412904275
 20
51.38474010781543
 30
0.0
 11
36.11635177034603
 21
53.38474010777634
 31
0.0
  0
ARC
  8
ITEM_50
  5
104
 10
35.11635177036512
 20
53.38473392842798
 30
0.0
 40
1.000000000000002
 50
0.0003540505808194
 51
90.00035405058082
  0
LINE
  8
ITEM_50
  5
105
 10
35.11634559101678
 20
54.38473392840889
 30
0.0
 11
33.61634559104541
 21
54.38472465938636
 31
0.0
  0
ARC
  8
ITEM_50
  5
106
 10
33.61634868071958
 20
53.8847246593959
 30
0.0
 40
0.4999999999999976
 50
90.00035405058122
 51
180.0003540505812
  0
LINE
  8
ITEM_50
  5
107
 10
33.11634868072913
 20
53.88472156972172
 30
0.0
 11
33.11635794975168
 21
52.38472156975036
 31
0.0
  0
ARC
  8
ITEM_50
  5
108
 10
32.61635794976119
 20
52.38471848007622
 30
0.0
 40
0.5000000000000262
 50
270.0003540505837
 51
0.0003540505772063
  0
ARC
  8
ITEM_50
  5
109
 10
32.61634559106447
 20
54.38471848003797
 30
0.0
 40
2.499999999999973
 50
180.0003540505803
 51
270.0003540505815
  0
LINE
  8
ITEM_50
  5
10A
 10
30.11634559111224
 20
54.38470303166711
 30
0.0
 11
30.11633751092313
 21
55.69231487622684
 31
0.0
  0
ARC
  8
ITEM_50
  5
10B
 10
35.11633751082774
 20
55.69234577296865
 30
0.0
 40
5.000000000000071
 50
135.0003540505818
 51
180.0003540505813
  0
LINE
  8
ITEM_50
  5
10C
 10
31.58078175766677
 20
59.22785783153825
 30
0.0
 11
33.02316100003566
 21
60.67025489994501
 31
0.0
  0
ARC
  8
ITEM_50
  5
10D
 10
36.5587167531965
 20
57.13474284137538
 30
0.0
 40
5.0
 50
90.00035405058041
 51
135.0003540505806
  0
LINE
  8
ITEM_50
  5
10E
 10
36.55868585645477
 20
62.13474284127993
 30
0.0
 11
40.11629770097154
 21
62.13476482500283
 31
0.0
  0
LINE
  8
ITEM_50
  5
10F
 10
40.11629770097154
 20
62.13476482500283
 30
0.0
 11
43.67390954546865
 21
62.13478680872573
 31
0.0
  0
ARC
  8
ITEM_50
  5
110
 10
43.67394044221049
 20
57.13478680882119
 30
0.0
 40
4.999999999999997
 50
45.00035405058141
 51
90.00035405058163
  0
LINE
  8
ITEM_50
  5
111
 10
47.20945250078008
 20
60.67034256198209
 30
0.0
 11
48.65184956918671
 21
59.22796331961309
 31
0.0
  0
ARC
  8
ITEM_50
  5
112
 10
45.11633751061701
 20
55.69240756645222
 30
0.0
 40
5.000000000000071
 50
0.0003540505807685
 51
45.00035405058026
  0
LINE
  8
ITEM_50
  5
113
 10
50.11633751052163
 20
55.69243846319398
 30
0.0
 11
50.11634559071072
 21
54.38482661863425
 31
0.0
  0
ARC
  8
ITEM_50
  5
114
 10
47.61634559075844
 20
54.38481117026336
 30
0.0
 40
2.500000000000002
 50
270.000354050581
 51
0.0003540505810738
  0
ARC
  8
ITEM_50
  5
115
 10
47.61635794945517
 20
52.38481117030154
 30
0.0
 40
0.5000000000000048
 50
180.0003540505812
 51
270.0003540505804
  0
LINE
  8
ITEM_50
  5
116
 10
47.11635794946471
 20
52.38480808062737
 30
0.0
 11
47.11634868044218
 21
53.88480808059873
 31
0.0
  0
ARC
  8
ITEM_50
  5
117
 10
46.61634868045172
 20
53.88480499092454
 30
0.0
 40
0.4999999999999976
 50
0.0003540505812265
 51
90.00035405058122
  0
LINE
  8
ITEM_50
  5
118
 10
46.61634559077755
 20
54.384804990915
 30
0.0
 11
45.11634559080619
 21
54.38479572189246
 31
0.0
  0
ARC
  8
ITEM_50
  5
119
 10
45.11635177015454
 20
53.38479572191155
 30
0.0
 40
1.000000000000002
 50
90.00035405058122
 51
180.0003540505808
  0
LINE
  8
ITEM_50
  5
11A
 10
44.11635177017363
 20
53.38478954256319
 30
0.0
 11
44.11636412887035
 21
51.38478954260229
 31
0.0
  0
ARC
  8
ITEM_50
  5
11B
 10
45.61636412884171
 20
51.38479881162483
 30
0.0
 40
1.5
 50
180.0003540505809
 51
270.0003540506157
  0
LINE
  8
ITEM_50
  5
11C
 10
45.61637339786516
 20
49.88479881165347
 30
0.0
 11
56.11637339766628
 21
49.88486369481769
 31
0.0
  0
ARC
  8
ITEM_50
  5
11D
 10
56.11634868027034
 20
53.88486369474133
 30
0.0
 40
4.000000000000001
 50
270.0003540506168
 51
0.0003540505810229
  0
LINE
  8
ITEM_50
  5
11E
 10
60.11634868019398
 20
53.88488841213476
 30
0.0
 11
60.11621891387848
 21
74.88488841171916
 31
0.0
  0
ARC
  8
ITEM_50
  5
11F
 10
59.11621891389756
 20
74.88488223237079
 30
0.0
 40
1.000000000000002
 50
0.0003540505812265
 51
90.00035405058082
  0
LINE
  8
ITEM_50
  5
120
 10
59.11621273454922
 20
75.88488223235172
 30
0.0
 11
58.1162127345683
 21
75.88487605300346
 31
0.0
  0
ARC
  8
ITEM_50
  5
121
 10
58.11621582424248
 20
75.38487605301303
 30
0.0
 40
0.4999999999999905
 50
90.0003540505812
 51
180.000354050582
  0
LINE
  8
ITEM_50
  5
122
 10
57.61621582425203
 20
75.38487296333883
 30
0.0
 11
57.61632705252246
 21
57.38487296368249
 31
0.0
  0
ARC
  8
ITEM_50
  5
123
 10
57.116327052532
 20
57.38486987400832
 30
0.0
 40
0.4999999999999976
 50
270.0003540505812
 51
0.0003540505812265
  0
LINE
  8
ITEM_50
  5
124
 10
57.11633014220619
 20
56.88486987401786
 30
0.0
 11
55.01633014224626
 21
56.88485689738632
 31
0.0
  0
ARC
  8
ITEM_50
  5
125
 10
55.01632705257207
 20
57.38485689737676
 30
0.0
 40
0.4999999999999976
 50
180.0003540505812
 51
270.0003540505812
  0
LINE
  8
ITEM_50
  5
126
 10
54.51632705258163
 20
57.38485380770258
 30
0.0
 11
54.51625599007552
 21
68.88485380748304
 31
0.0
  0
ARC
  8
ITEM_50
  5
127
 10
53.51625599009461
 20
68.88484762813467
 30
0.0
 40
0.9999999999999952
 50
0.0003540505812265
 51
90.00035405058122
  0
LINE
  8
ITEM_50
  5
128
 10
53.51624981074625
 20
69.88484762811556
 30
0.0
 11
46.51624981087989
 21
69.88480437267695
 31
0.0
  0
ARC
  8
ITEM_50
  5
129
 10
46.51624672120571
 20
70.38480437266741
 30
0.0
 40
0.5000000000000047
 50
180.000354050582
 51
270.0003540505812
  0
LINE
  8
ITEM_50
  5
12A
 10
46.01624672121526
 20
70.38480128299323
 30
0.0
 11
46.01621582447348
 21
75.38480128289801
 31
0.0
  0
ARC
  8
ITEM_50
  5
12B
 10
45.51621582448302
 20
75.38479819322381
 30
0.0
 40
0.4999999999999976
 50
0.0003540505820407
 51
90.00035405058204
  0
LINE
  8
ITEM_50
  5
12C
 10
45.51621273480884
 20
75.88479819321428
 30
0.0
 11
39.11621273493106
 21
75.88475864538467
 31
0.0
  0
ARC
  8
ITEM_50
  5
12D
 10
39.11620037623437
 20
77.88475864534652
 30
0.0
 40
2.000000000000033
 50
180.0003540505804
 51
270.0003540505801
  0
LINE
  8
ITEM_50
  5
12E
 10
37.11620037627252
 20
77.88474628664984
 30
0.0
 11
37.11616947953074
 21
82.88474628655427
 31
0.0
  0
ARC
  8
ITEM_50
  5
12F
 10
39.11616947949255
 20
82.88475864525096
 30
0.0
 40
1.999999999999997
 50
90.00035405058102
 51
180.0003540505808
  0
LINE
  8
ITEM_50
  5
130
 10
39.11615712079584
 20
84.88475864521279
 30
0.0
 11
59.116157120414
 21
84.88488223218006
 31
0.0
  0
ARC
  8
ITEM_50
  5
131
 10
59.11615094106564
 20
85.88488223216096
 30
0.0
 40
0.9999999999999953
 50
270.0003540505808
 51
0.0003540505812265
  0
ARC
  8
ITEM_50
  5
132
 10
56.11615094112292
 20
85.88486369411589
 30
0.0
 40
3.999999999999995
 50
0.0003540505810229
 51
90.00035405058112
  0
LINE
  8
ITEM_50
  5
133
 10
56.11612622372948
 20
89.8848636940395
 30
0.0
 11
24.1161262243576
 21
89.88466595489198
 31
0.0
  0
ARC
  8
ITEM_50
  5
134
 10
24.11615094175351
 20
85.88466595496836
 30
0.0
 40
3.99999999999998
 50
90.00035405061653
 51
180.0003540505814
  0
LINE
  8
ITEM_50
  5
135
 10
20.11615094182991
 20
85.88464123757491
 30
0.0
 11
20.11621582498766
 21
75.3846412377827
 31
0.0
  0
ARC
  8
ITEM_50
  5
136
 10
21.61621582495902
 20
75.38465050680524
 30
0.0
 40
1.5
 50
180.0003540505809
 51
270.0003540505809
  0
LINE
  8
ITEM_50
  5
137
 10
21.61622509398155
 20
73.88465050683387
 30
0.0
 11
23.61622509394337
 21
73.8846628655306
 31
0.0
  0
ARC
  8
ITEM_50
  5
138
 10
32.11614970571145
 20
86.08471538975858
 30
0.0
 40
2.000000000000004
 50
0.0003540505812265
 51
90.00035405058061
  0
LINE
  8
ITEM_50
  5
139
 10
34.11614970567327
 20
86.0847277484553
 30
0.0
 11
34.11616453610933
 21
83.68472774850137
 31
0.0
  0
ARC
  8
ITEM_50
  5
13A
 10
32.11616453614751
 20
83.68471538980463
 30
0.0
 40
1.999999999999997
 50
270.0003540505809
 51
0.0003540505812265
  0
LINE
  8
ITEM_50
  5
13B
 10
32.11617689484423
 20
81.68471538984283
 30
0.0
 11
23.91617689501745
 21
81.68466471918632
 31
0.0
  0
ARC
  8
ITEM_50
  5
13C
 10
23.91616453632077
 20
83.68466471914815
 30
0.0
 40
2.000000000000019
 50
180.0003540506663
 51
270.0003540505801
  0
LINE
  8
ITEM_50
  5
13D
 10
21.91616453635893
 20
83.68465236044845
 30
0.0
 11
21.91615094178913
 21
85.88465236040593
 31
0.0
  0
ARC
  8
ITEM_50
  5
13E
 10
24.1161509417472
 20
85.88466595497568
 30
0.0
 40
2.200000000000081
 50
90.00035405058189
 51
180.0003540506689
  0
LINE
  8
ITEM_50
  5
13F
 10
24.11613734718078
 20
88.08466595493376
 30
0.0
 11
32.11613734701474
 21
88.0847153897204
 31
0.0
  0
LINE
  8
ITEM_50
  5
140
 10
9.0
 20
50.0
 30
0.0
 11
9.0
 21
90.0
 31
0.0
  0
LINE
  8
ITEM_50
  5
141
 10
71.0
 20
90.0
 30
0.0
 11
71.0
 21
50.0
 31
0.0
  0
LINE
  8
ITEM_50
  5
142
 10
60.24616555354103
 20
37.69575408126193
 30
0.0
 11
20.24616555354103
 21
37.69575408126193
 31
0.0
  0
ENDSEC
  0
EOF
